ISO-10303-21;
HEADER;
FILE_DESCRIPTION (( 'STEP AP203' ),
    '1' );
FILE_NAME ('Q-OZHWP-R2-12.7-1030-M.STEP',
    '2020-12-22T09:13:03',
    ( '' ),
    ( '' ),
    'SwSTEP 2.0',
    'SolidWorks 2020',
    '' );
FILE_SCHEMA (( 'CONFIG_CONTROL_DESIGN' ));
ENDSEC;

DATA;
#1 = CC_DESIGN_PERSON_AND_ORGANIZATION_ASSIGNMENT ( #239, #108, ( #263 ) ) ;
#2 = CARTESIAN_POINT ( 'NONE',  ( -1.614212418857619014, 7.776507174585692163E-16, -6.349999999999999645 ) ) ;
#3 = VECTOR ( 'NONE', #248, 1000.000000000000000 ) ;
#4 = FACE_OUTER_BOUND ( 'NONE', #334, .T. ) ;
#5 = EDGE_CURVE ( 'NONE', #147, #296, #332, .T. ) ;
#6 = CARTESIAN_POINT ( 'NONE',  ( -1.614212418857619014, 1.555301434917138433E-15, -12.69999999999999929 ) ) ;
#7 = DIRECTION ( 'NONE',  ( -1.000000000000000000, -0.000000000000000000, -0.000000000000000000 ) ) ;
#8 = AXIS2_PLACEMENT_3D ( 'NONE', #47, #204, #123 ) ;
#9 = APPROVAL_PERSON_ORGANIZATION ( #190, #327, #165 ) ;
#10 = CALENDAR_DATE ( 2020, 22, 12 ) ;
#11 = DIRECTION ( 'NONE',  ( -1.000000000000000000, -0.000000000000000000, -0.000000000000000000 ) ) ;
#12 = EDGE_CURVE ( 'NONE', #93, #89, #227, .T. ) ;
#13 = VECTOR ( 'NONE', #67, 1000.000000000000000 ) ;
#14 = DATE_AND_TIME ( #237, #104 ) ;
#15 = FACE_OUTER_BOUND ( 'NONE', #325, .T. ) ;
#16 = EDGE_CURVE ( 'NONE', #296, #147, #181, .T. ) ;
#17 = DIRECTION ( 'NONE',  ( 0.000000000000000000, 0.000000000000000000, 1.000000000000000000 ) ) ;
#18 = AXIS2_PLACEMENT_3D ( 'NONE', #288, #36, #233 ) ;
#19 = EDGE_LOOP ( 'NONE', ( #119, #224, #171, #149 ) ) ;
#20 = EDGE_CURVE ( 'NONE', #164, #21, #168, .T. ) ;
#21 = VERTEX_POINT ( 'NONE', #142 ) ;
#22 = AXIS2_PLACEMENT_3D ( 'NONE', #212, #79, #282 ) ;
#23 = DIRECTION ( 'NONE',  ( 1.000000000000000000, 0.000000000000000000, 0.000000000000000000 ) ) ;
#24 = AXIS2_PLACEMENT_3D ( 'NONE', #56, #236, #255 ) ;
#25 = DIRECTION ( 'NONE',  ( 0.000000000000000000, 0.000000000000000000, 1.000000000000000000 ) ) ;
#26 = EDGE_CURVE ( 'NONE', #94, #330, #57, .T. ) ;
#27 = DIRECTION ( 'NONE',  ( -1.000000000000000000, -0.000000000000000000, -0.000000000000000000 ) ) ;
#28 = DIRECTION ( 'NONE',  ( 0.000000000000000000, 0.000000000000000000, 1.000000000000000000 ) ) ;
#29 = EDGE_CURVE ( 'NONE', #222, #94, #194, .T. ) ;
#30 = LINE ( 'NONE', #249, #274 ) ;
#31 = DIRECTION ( 'NONE',  ( 1.000000000000000000, 0.000000000000000000, 0.000000000000000000 ) ) ;
#32 = APPROVAL_ROLE ( '' ) ;
#33 = PLANE ( 'NONE',  #18 ) ;
#34 = EDGE_LOOP ( 'NONE', ( #132, #301 ) ) ;
#35 = PERSON_AND_ORGANIZATION ( #124, #99 ) ;
#36 = DIRECTION ( 'NONE',  ( -1.000000000000000000, 0.000000000000000000, -0.000000000000000000 ) ) ;
#37 = DIRECTION ( 'NONE',  ( 0.000000000000000000, 0.000000000000000000, -1.000000000000000000 ) ) ;
#38 = DATE_AND_TIME ( #287, #146 ) ;
#39 = ADVANCED_FACE ( 'NONE', ( #76 ), #102, .F. ) ;
#40 = CARTESIAN_POINT ( 'NONE',  ( -3.000000000000000000, 0.000000000000000000, 0.000000000000000000 ) ) ;
#41 = AXIS2_PLACEMENT_3D ( 'NONE', #321, #238, #86 ) ;
#42 = CARTESIAN_POINT ( 'NONE',  ( 3.000000000000000888, 0.000000000000000000, 0.000000000000000000 ) ) ;
#43 = CC_DESIGN_DATE_AND_TIME_ASSIGNMENT ( #38, #65, ( #263 ) ) ;
#44 = EDGE_LOOP ( 'NONE', ( #110, #295 ) ) ;
#45 = DIRECTION ( 'NONE',  ( 0.000000000000000000, 0.000000000000000000, 1.000000000000000000 ) ) ;
#46 = AXIS2_PLACEMENT_3D ( 'NONE', #40, #240, #17 ) ;
#47 = CARTESIAN_POINT ( 'NONE',  ( 3.000000000000000888, 0.000000000000000000, 0.000000000000000000 ) ) ;
#48 = CC_DESIGN_PERSON_AND_ORGANIZATION_ASSIGNMENT ( #216, #290, ( #213 ) ) ;
#49 = CARTESIAN_POINT ( 'NONE',  ( -1.614212418857619014, 0.000000000000000000, 0.000000000000000000 ) ) ;
#50 = CARTESIAN_POINT ( 'NONE',  ( -2.999999999999999556, 0.000000000000000000, 6.349999999999999645 ) ) ;
#51 = AXIS2_PLACEMENT_3D ( 'NONE', #129, #7, #28 ) ;
#52 = EDGE_CURVE ( 'NONE', #81, #303, #91, .T. ) ;
#53 = DIRECTION ( 'NONE',  ( 0.000000000000000000, 0.000000000000000000, -1.000000000000000000 ) ) ;
#54 = FACE_OUTER_BOUND ( 'NONE', #34, .T. ) ;
#55 = EDGE_CURVE ( 'NONE', #89, #93, #205, .T. ) ;
#56 = CARTESIAN_POINT ( 'NONE',  ( 0.000000000000000000, 0.000000000000000000, 0.000000000000000000 ) ) ;
#57 = CIRCLE ( 'NONE', #46, 12.69999999999999929 ) ;
#58 = CYLINDRICAL_SURFACE ( 'NONE', #169, 6.349999999999999645 ) ;
#59 = ORIENTED_EDGE ( 'NONE', *, *, #52, .F. ) ;
#60 = DIRECTION ( 'NONE',  ( 0.000000000000000000, 0.000000000000000000, 1.000000000000000000 ) ) ;
#61 = AXIS2_PLACEMENT_3D ( 'NONE', #252, #11, #133 ) ;
#62 = CC_DESIGN_APPROVAL ( #327, ( #221 ) ) ;
#63 = APPROVAL_STATUS ( 'not_yet_approved' ) ;
#64 = ORIENTED_EDGE ( 'NONE', *, *, #69, .T. ) ;
#65 = DATE_TIME_ROLE ( 'classification_date' ) ;
#66 = EDGE_CURVE ( 'NONE', #21, #303, #30, .T. ) ;
#67 = DIRECTION ( 'NONE',  ( -1.000000000000000000, -0.000000000000000000, -0.000000000000000000 ) ) ;
#68 = ORIENTED_EDGE ( 'NONE', *, *, #12, .T. ) ;
#69 = EDGE_CURVE ( 'NONE', #303, #81, #145, .T. ) ;
#70 = ORIENTED_EDGE ( 'NONE', *, *, #69, .F. ) ;
#71 = DIRECTION ( 'NONE',  ( -1.000000000000000000, -0.000000000000000000, -0.000000000000000000 ) ) ;
#72 = CARTESIAN_POINT ( 'NONE',  ( -1.500000000000000444, 0.000000000000000000, 6.349999999999999645 ) ) ;
#73 = VECTOR ( 'NONE', #130, 1000.000000000000000 ) ;
#74 = PLANE ( 'NONE',  #127 ) ;
#75 = DIRECTION ( 'NONE',  ( 0.000000000000000000, 0.000000000000000000, 1.000000000000000000 ) ) ;
#76 = FACE_OUTER_BOUND ( 'NONE', #19, .T. ) ;
#77 = PRODUCT_RELATED_PRODUCT_CATEGORY ( 'detail', '', ( #213 ) ) ;
#78 = CARTESIAN_POINT ( 'NONE',  ( 3.000000000000000888, 0.000000000000000000, 6.349999999999999645 ) ) ;
#79 = DIRECTION ( 'NONE',  ( 1.000000000000000000, 0.000000000000000000, 0.000000000000000000 ) ) ;
#80 = APPROVAL_STATUS ( 'not_yet_approved' ) ;
#81 = VERTEX_POINT ( 'NONE', #50 ) ;
#82 = AXIS2_PLACEMENT_3D ( 'NONE', #166, #159, #208 ) ;
#83 = EDGE_CURVE ( 'NONE', #89, #296, #230, .T. ) ;
#84 = DIRECTION ( 'NONE',  ( 0.000000000000000000, 0.000000000000000000, 1.000000000000000000 ) ) ;
#85 = PERSON_AND_ORGANIZATION_ROLE ( 'creator' ) ;
#86 = DIRECTION ( 'NONE',  ( 0.000000000000000000, 0.000000000000000000, -1.000000000000000000 ) ) ;
#87 = ORIENTED_EDGE ( 'NONE', *, *, #16, .F. ) ;
#88 = APPLICATION_PROTOCOL_DEFINITION ( 'international standard', 'config_control_design', 1994, #156 ) ;
#89 = VERTEX_POINT ( 'NONE', #180 ) ;
#90 = APPROVAL_STATUS ( 'not_yet_approved' ) ;
#91 = CIRCLE ( 'NONE', #120, 6.349999999999999645 ) ;
#92 = ORIENTED_EDGE ( 'NONE', *, *, #183, .T. ) ;
#93 = VERTEX_POINT ( 'NONE', #78 ) ;
#94 = VERTEX_POINT ( 'NONE', #176 ) ;
#95 = ORIENTED_EDGE ( 'NONE', *, *, #16, .T. ) ;
#96 = ORIENTED_EDGE ( 'NONE', *, *, #183, .F. ) ;
#97 = FACE_BOUND ( 'NONE', #214, .T. ) ;
#98 = ADVANCED_FACE ( 'NONE', ( #97, #277 ), #74, .F. ) ;
#99 = ORGANIZATION ( 'UNSPECIFIED', 'UNSPECIFIED', '' ) ;
#100 = CARTESIAN_POINT ( 'NONE',  ( -1.614212418857619014, 0.000000000000000000, 0.000000000000000000 ) ) ;
#101 = APPROVAL ( #90, 'UNSPECIFIED' ) ;
#102 = CYLINDRICAL_SURFACE ( 'NONE', #107, 6.349999999999999645 ) ;
#103 = CYLINDRICAL_SURFACE ( 'NONE', #211, 12.69999999999999929 ) ;
#104 = LOCAL_TIME ( 17, 13, 3.000000000000000000, #264 ) ;
#105 = DATE_AND_TIME ( #10, #314 ) ;
#106 =( NAMED_UNIT ( * ) PLANE_ANGLE_UNIT ( ) SI_UNIT ( $, .RADIAN. ) );
#107 = AXIS2_PLACEMENT_3D ( 'NONE', #226, #308, #157 ) ;
#108 = PERSON_AND_ORGANIZATION_ROLE ( 'classification_officer' ) ;
#109 = MECHANICAL_CONTEXT ( 'NONE', #137, 'mechanical' ) ;
#110 = ORIENTED_EDGE ( 'NONE', *, *, #20, .F. ) ;
#111 = ADVANCED_FACE ( 'NONE', ( #229 ), #307, .F. ) ;
#112 = CALENDAR_DATE ( 2020, 22, 12 ) ;
#113 = DIRECTION ( 'NONE',  ( -1.000000000000000000, -0.000000000000000000, -0.000000000000000000 ) ) ;
#114 = EDGE_LOOP ( 'NONE', ( #195, #218 ) ) ;
#115 = UNCERTAINTY_MEASURE_WITH_UNIT (LENGTH_MEASURE( 1.000000000000000082E-05 ), #188, 'distance_accuracy_value', 'NONE');
#116 = EDGE_LOOP ( 'NONE', ( #241, #223, #95, #96 ) ) ;
#117 = DIRECTION ( 'NONE',  ( 0.000000000000000000, 0.000000000000000000, 1.000000000000000000 ) ) ;
#118 = ORIENTED_EDGE ( 'NONE', *, *, #12, .F. ) ;
#119 = ORIENTED_EDGE ( 'NONE', *, *, #66, .F. ) ;
#120 = AXIS2_PLACEMENT_3D ( 'NONE', #225, #276, #25 ) ;
#121 = LOCAL_TIME ( 17, 13, 3.000000000000000000, #326 ) ;
#122 = EDGE_LOOP ( 'NONE', ( #68, #198 ) ) ;
#123 = DIRECTION ( 'NONE',  ( 0.000000000000000000, 0.000000000000000000, 1.000000000000000000 ) ) ;
#124 = PERSON ( 'UNSPECIFIED', 'UNSPECIFIED', 'UNSPECIFIED', ('UNSPECIFIED'), ('UNSPECIFIED'), ('UNSPECIFIED') ) ;
#125 = CARTESIAN_POINT ( 'NONE',  ( -1.614212418857619014, 0.000000000000000000, 6.349999999999999645 ) ) ;
#126 = ADVANCED_FACE ( 'NONE', ( #155 ), #103, .T. ) ;
#127 = AXIS2_PLACEMENT_3D ( 'NONE', #228, #31, #53 ) ;
#128 = CARTESIAN_POINT ( 'NONE',  ( 1.500000000000000888, 0.000000000000000000, 6.349999999999999645 ) ) ;
#129 = CARTESIAN_POINT ( 'NONE',  ( -1.614212418857619014, 0.000000000000000000, 0.000000000000000000 ) ) ;
#130 = DIRECTION ( 'NONE',  ( -1.000000000000000000, -0.000000000000000000, -0.000000000000000000 ) ) ;
#131 = VECTOR ( 'NONE', #178, 1000.000000000000000 ) ;
#132 = ORIENTED_EDGE ( 'NONE', *, *, #275, .F. ) ;
#133 = DIRECTION ( 'NONE',  ( 0.000000000000000000, 0.000000000000000000, 1.000000000000000000 ) ) ;
#134 = COORDINATED_UNIVERSAL_TIME_OFFSET ( 8, 0, .AHEAD. ) ;
#135 = DIRECTION ( 'NONE',  ( -1.000000000000000000, -0.000000000000000000, -0.000000000000000000 ) ) ;
#136 = APPROVAL_DATE_TIME ( #215, #101 ) ;
#137 = APPLICATION_CONTEXT ( 'configuration controlled 3d designs of mechanical parts and assemblies' ) ;
#138 = APPLICATION_PROTOCOL_DEFINITION ( 'international standard', 'config_control_design', 1994, #137 ) ;
#139 = EDGE_CURVE ( 'NONE', #164, #81, #247, .T. ) ;
#140 = CARTESIAN_POINT ( 'NONE',  ( 3.000000000000000000, 0.000000000000000000, 12.69999999999999929 ) ) ;
#141 = CALENDAR_DATE ( 2020, 22, 12 ) ;
#142 = CARTESIAN_POINT ( 'NONE',  ( -1.500000000000000444, 7.776507174585692163E-16, -6.349999999999999645 ) ) ;
#143 = PERSON_AND_ORGANIZATION ( #124, #99 ) ;
#144 = DIRECTION ( 'NONE',  ( 0.000000000000000000, 0.000000000000000000, 1.000000000000000000 ) ) ;
#145 = CIRCLE ( 'NONE', #299, 6.349999999999999645 ) ;
#146 = LOCAL_TIME ( 17, 13, 3.000000000000000000, #293 ) ;
#147 = VERTEX_POINT ( 'NONE', #128 ) ;
#148 = DESIGN_CONTEXT ( 'detailed design', #156, 'design' ) ;
#149 = ORIENTED_EDGE ( 'NONE', *, *, #52, .T. ) ;
#150 = DIRECTION ( 'NONE',  ( -1.000000000000000000, -0.000000000000000000, -0.000000000000000000 ) ) ;
#151 = DIRECTION ( 'NONE',  ( 0.000000000000000000, 0.000000000000000000, 1.000000000000000000 ) ) ;
#152 = LINE ( 'NONE', #125, #3 ) ;
#153 = CARTESIAN_POINT ( 'NONE',  ( -1.614212418857619014, 0.000000000000000000, 0.000000000000000000 ) ) ;
#154 = VECTOR ( 'NONE', #309, 1000.000000000000000 ) ;
#155 = FACE_OUTER_BOUND ( 'NONE', #285, .T. ) ;
#156 = APPLICATION_CONTEXT ( 'configuration controlled 3d designs of mechanical parts and assemblies' ) ;
#157 = DIRECTION ( 'NONE',  ( 0.000000000000000000, 0.000000000000000000, 1.000000000000000000 ) ) ;
#158 = EDGE_CURVE ( 'NONE', #268, #330, #206, .T. ) ;
#159 = DIRECTION ( 'NONE',  ( -1.000000000000000000, 0.000000000000000000, -0.000000000000000000 ) ) ;
#160 = CARTESIAN_POINT ( 'NONE',  ( 3.000000000000000000, 1.555301434917138433E-15, -12.69999999999999929 ) ) ;
#161 = CIRCLE ( 'NONE', #22, 6.349999999999999645 ) ;
#162 = PERSON_AND_ORGANIZATION_ROLE ( 'design_supplier' ) ;
#163 = FACE_BOUND ( 'NONE', #122, .T. ) ;
#164 = VERTEX_POINT ( 'NONE', #72 ) ;
#165 = APPROVAL_ROLE ( '' ) ;
#166 = CARTESIAN_POINT ( 'NONE',  ( 1.500000000000000444, 6.349999999999999645, 0.000000000000000000 ) ) ;
#167 = FACE_OUTER_BOUND ( 'NONE', #44, .T. ) ;
#168 = CIRCLE ( 'NONE', #262, 6.349999999999999645 ) ;
#169 = AXIS2_PLACEMENT_3D ( 'NONE', #261, #113, #84 ) ;
#170 = CC_DESIGN_DATE_AND_TIME_ASSIGNMENT ( #185, #207, ( #221 ) ) ;
#171 = ORIENTED_EDGE ( 'NONE', *, *, #139, .T. ) ;
#172 = EDGE_LOOP ( 'NONE', ( #196, #87 ) ) ;
#173 = ORIENTED_EDGE ( 'NONE', *, *, #29, .T. ) ;
#174 = ORIENTED_EDGE ( 'NONE', *, *, #275, .T. ) ;
#175 = EDGE_LOOP ( 'NONE', ( #318, #118, #92, #258 ) ) ;
#176 = CARTESIAN_POINT ( 'NONE',  ( -3.000000000000000000, 0.000000000000000000, 12.69999999999999929 ) ) ;
#177 = AXIS2_PLACEMENT_3D ( 'NONE', #100, #27, #75 ) ;
#178 = DIRECTION ( 'NONE',  ( -1.000000000000000000, -0.000000000000000000, -0.000000000000000000 ) ) ;
#179 = CYLINDRICAL_SURFACE ( 'NONE', #253, 12.69999999999999929 ) ;
#180 = CARTESIAN_POINT ( 'NONE',  ( 3.000000000000000888, 7.776507174585692163E-16, -6.349999999999999645 ) ) ;
#181 = CIRCLE ( 'NONE', #289, 6.349999999999999645 ) ;
#182 = DIRECTION ( 'NONE',  ( -1.000000000000000000, -0.000000000000000000, -0.000000000000000000 ) ) ;
#183 = EDGE_CURVE ( 'NONE', #93, #147, #152, .T. ) ;
#184 = CARTESIAN_POINT ( 'NONE',  ( -2.999999999999999556, 7.776507174585692163E-16, -6.349999999999999645 ) ) ;
#185 = DATE_AND_TIME ( #112, #121 ) ;
#186 = CARTESIAN_POINT ( 'NONE',  ( -3.000000000000000000, 1.555301434917138433E-15, -12.69999999999999929 ) ) ;
#187 = AXIS2_PLACEMENT_3D ( 'NONE', #316, #135, #60 ) ;
#188 =( LENGTH_UNIT ( ) NAMED_UNIT ( * ) SI_UNIT ( .MILLI., .METRE. ) );
#189 = PLANE ( 'NONE',  #41 ) ;
#190 = PERSON_AND_ORGANIZATION ( #124, #99 ) ;
#191 = ORIENTED_EDGE ( 'NONE', *, *, #66, .T. ) ;
#192 = CC_DESIGN_APPROVAL ( #232, ( #263 ) ) ;
#193 = PERSON_AND_ORGANIZATION ( #124, #99 ) ;
#194 = LINE ( 'NONE', #220, #13 ) ;
#195 = ORIENTED_EDGE ( 'NONE', *, *, #26, .T. ) ;
#196 = ORIENTED_EDGE ( 'NONE', *, *, #5, .F. ) ;
#197 = ADVANCED_FACE ( 'NONE', ( #250 ), #273, .F. ) ;
#198 = ORIENTED_EDGE ( 'NONE', *, *, #55, .T. ) ;
#199 = ORIENTED_EDGE ( 'NONE', *, *, #158, .T. ) ;
#200 = DIRECTION ( 'NONE',  ( -1.000000000000000000, -0.000000000000000000, -0.000000000000000000 ) ) ;
#201 = CIRCLE ( 'NONE', #61, 12.69999999999999929 ) ;
#202 = ADVANCED_FACE ( 'NONE', ( #4 ), #179, .T. ) ;
#203 = DIRECTION ( 'NONE',  ( -1.000000000000000000, -0.000000000000000000, -0.000000000000000000 ) ) ;
#204 = DIRECTION ( 'NONE',  ( -1.000000000000000000, -0.000000000000000000, -0.000000000000000000 ) ) ;
#205 = CIRCLE ( 'NONE', #8, 6.349999999999999645 ) ;
#206 = LINE ( 'NONE', #6, #131 ) ;
#207 = DATE_TIME_ROLE ( 'creation_date' ) ;
#208 = DIRECTION ( 'NONE',  ( -0.000000000000000000, 0.000000000000000000, 1.000000000000000000 ) ) ;
#209 = APPROVAL_DATE_TIME ( #105, #232 ) ;
#210 =( NAMED_UNIT ( * ) SI_UNIT ( $, .STERADIAN. ) SOLID_ANGLE_UNIT ( ) );
#211 = AXIS2_PLACEMENT_3D ( 'NONE', #49, #200, #151 ) ;
#212 = CARTESIAN_POINT ( 'NONE',  ( -1.500000000000000444, 0.000000000000000000, 0.000000000000000000 ) ) ;
#213 = PRODUCT ( 'Q-OZHWP-R2-12.7-1030-M', 'Q-OZHWP-R2-12.7-1030-M', '', ( #109 ) ) ;
#214 = EDGE_LOOP ( 'NONE', ( #59, #70 ) ) ;
#215 = DATE_AND_TIME ( #141, #320 ) ;
#216 = PERSON_AND_ORGANIZATION ( #124, #99 ) ;
#217 = PERSON_AND_ORGANIZATION ( #124, #99 ) ;
#218 = ORIENTED_EDGE ( 'NONE', *, *, #302, .T. ) ;
#219 = EDGE_CURVE ( 'NONE', #268, #222, #312, .T. ) ;
#220 = CARTESIAN_POINT ( 'NONE',  ( -1.614212418857619014, 0.000000000000000000, 12.69999999999999929 ) ) ;
#221 = PRODUCT_DEFINITION ( 'UNKNOWN', '', #246, #148 ) ;
#222 = VERTEX_POINT ( 'NONE', #140 ) ;
#223 = ORIENTED_EDGE ( 'NONE', *, *, #83, .T. ) ;
#224 = ORIENTED_EDGE ( 'NONE', *, *, #284, .T. ) ;
#225 = CARTESIAN_POINT ( 'NONE',  ( -2.999999999999999556, 0.000000000000000000, 0.000000000000000000 ) ) ;
#226 = CARTESIAN_POINT ( 'NONE',  ( -1.614212418857619014, 0.000000000000000000, 0.000000000000000000 ) ) ;
#227 = CIRCLE ( 'NONE', #328, 6.349999999999999645 ) ;
#228 = CARTESIAN_POINT ( 'NONE',  ( -3.000000000000000000, 6.349999999999999645, 0.000000000000000000 ) ) ;
#229 = FACE_OUTER_BOUND ( 'NONE', #175, .T. ) ;
#230 = LINE ( 'NONE', #2, #154 ) ;
#231 = CLOSED_SHELL ( 'NONE', ( #126, #271, #197, #333, #111, #39, #98, #202, #297, #257 ) ) ;
#232 = APPROVAL ( #80, 'UNSPECIFIED' ) ;
#233 = DIRECTION ( 'NONE',  ( -0.000000000000000000, 0.000000000000000000, 1.000000000000000000 ) ) ;
#234 = PLANE ( 'NONE',  #82 ) ;
#235 = PERSON_AND_ORGANIZATION ( #124, #99 ) ;
#236 = DIRECTION ( 'NONE',  ( 0.000000000000000000, 0.000000000000000000, 1.000000000000000000 ) ) ;
#237 = CALENDAR_DATE ( 2020, 22, 12 ) ;
#238 = DIRECTION ( 'NONE',  ( 1.000000000000000000, 0.000000000000000000, 0.000000000000000000 ) ) ;
#239 = PERSON_AND_ORGANIZATION ( #124, #99 ) ;
#240 = DIRECTION ( 'NONE',  ( -1.000000000000000000, -0.000000000000000000, -0.000000000000000000 ) ) ;
#241 = ORIENTED_EDGE ( 'NONE', *, *, #55, .F. ) ;
#242 = ORIENTED_EDGE ( 'NONE', *, *, #29, .F. ) ;
#243 = ORIENTED_EDGE ( 'NONE', *, *, #139, .F. ) ;
#244 = ADVANCED_BREP_SHAPE_REPRESENTATION ( 'Q-OZHWP-R2-12.7-1030-M', ( #311, #24 ), #254 ) ;
#245 = CARTESIAN_POINT ( 'NONE',  ( -1.500000000000000444, 0.000000000000000000, 0.000000000000000000 ) ) ;
#246 = PRODUCT_DEFINITION_FORMATION_WITH_SPECIFIED_SOURCE ( 'ANY', '', #213, .NOT_KNOWN. ) ;
#247 = LINE ( 'NONE', #304, #73 ) ;
#248 = DIRECTION ( 'NONE',  ( -1.000000000000000000, -0.000000000000000000, -0.000000000000000000 ) ) ;
#249 = CARTESIAN_POINT ( 'NONE',  ( -1.614212418857619014, 7.776507174585692163E-16, -6.349999999999999645 ) ) ;
#250 = FACE_OUTER_BOUND ( 'NONE', #116, .T. ) ;
#251 = DIRECTION ( 'NONE',  ( 0.000000000000000000, 0.000000000000000000, 1.000000000000000000 ) ) ;
#252 = CARTESIAN_POINT ( 'NONE',  ( -3.000000000000000000, 0.000000000000000000, 0.000000000000000000 ) ) ;
#253 = AXIS2_PLACEMENT_3D ( 'NONE', #153, #203, #260 ) ;
#254 =( GEOMETRIC_REPRESENTATION_CONTEXT ( 3 ) GLOBAL_UNCERTAINTY_ASSIGNED_CONTEXT ( ( #115 ) ) GLOBAL_UNIT_ASSIGNED_CONTEXT ( ( #188, #106, #210 ) ) REPRESENTATION_CONTEXT ( 'NONE', 'WORKASPACE' ) );
#255 = DIRECTION ( 'NONE',  ( 1.000000000000000000, 0.000000000000000000, 0.000000000000000000 ) ) ;
#256 = DIRECTION ( 'NONE',  ( -1.000000000000000000, -0.000000000000000000, -0.000000000000000000 ) ) ;
#257 = ADVANCED_FACE ( 'NONE', ( #167 ), #189, .F. ) ;
#258 = ORIENTED_EDGE ( 'NONE', *, *, #5, .T. ) ;
#259 = PERSON_AND_ORGANIZATION_ROLE ( 'creator' ) ;
#260 = DIRECTION ( 'NONE',  ( 0.000000000000000000, 0.000000000000000000, 1.000000000000000000 ) ) ;
#261 = CARTESIAN_POINT ( 'NONE',  ( -1.614212418857619014, 0.000000000000000000, 0.000000000000000000 ) ) ;
#262 = AXIS2_PLACEMENT_3D ( 'NONE', #245, #23, #37 ) ;
#263 = SECURITY_CLASSIFICATION ( '', '', #266 ) ;
#264 = COORDINATED_UNIVERSAL_TIME_OFFSET ( 8, 0, .AHEAD. ) ;
#265 = ORIENTED_EDGE ( 'NONE', *, *, #26, .F. ) ;
#266 = SECURITY_CLASSIFICATION_LEVEL ( 'unclassified' ) ;
#267 = DIRECTION ( 'NONE',  ( -1.000000000000000000, -0.000000000000000000, -0.000000000000000000 ) ) ;
#268 = VERTEX_POINT ( 'NONE', #160 ) ;
#269 = APPROVAL_PERSON_ORGANIZATION ( #143, #232, #283 ) ;
#270 = ORIENTED_EDGE ( 'NONE', *, *, #302, .F. ) ;
#271 = ADVANCED_FACE ( 'NONE', ( #15 ), #58, .F. ) ;
#272 = CARTESIAN_POINT ( 'NONE',  ( 1.500000000000000888, 0.000000000000000000, 0.000000000000000000 ) ) ;
#273 = CYLINDRICAL_SURFACE ( 'NONE', #177, 6.349999999999999645 ) ;
#274 = VECTOR ( 'NONE', #182, 1000.000000000000000 ) ;
#275 = EDGE_CURVE ( 'NONE', #222, #268, #310, .T. ) ;
#276 = DIRECTION ( 'NONE',  ( -1.000000000000000000, -0.000000000000000000, -0.000000000000000000 ) ) ;
#277 = FACE_OUTER_BOUND ( 'NONE', #114, .T. ) ;
#278 = AXIS2_PLACEMENT_3D ( 'NONE', #331, #71, #117 ) ;
#279 = CARTESIAN_POINT ( 'NONE',  ( -2.999999999999999556, 0.000000000000000000, 0.000000000000000000 ) ) ;
#280 = CARTESIAN_POINT ( 'NONE',  ( 1.500000000000000888, 7.776507174585692163E-16, -6.349999999999999645 ) ) ;
#281 = CC_DESIGN_PERSON_AND_ORGANIZATION_ASSIGNMENT ( #217, #259, ( #221 ) ) ;
#282 = DIRECTION ( 'NONE',  ( 0.000000000000000000, 0.000000000000000000, -1.000000000000000000 ) ) ;
#283 = APPROVAL_ROLE ( '' ) ;
#284 = EDGE_CURVE ( 'NONE', #21, #164, #161, .T. ) ;
#285 = EDGE_LOOP ( 'NONE', ( #174, #199, #265, #242 ) ) ;
#286 = DIRECTION ( 'NONE',  ( 0.000000000000000000, 0.000000000000000000, 1.000000000000000000 ) ) ;
#287 = CALENDAR_DATE ( 2020, 22, 12 ) ;
#288 = CARTESIAN_POINT ( 'NONE',  ( 3.000000000000000000, 12.69999999999999929, 0.000000000000000000 ) ) ;
#289 = AXIS2_PLACEMENT_3D ( 'NONE', #272, #150, #144 ) ;
#290 = PERSON_AND_ORGANIZATION_ROLE ( 'design_owner' ) ;
#291 = APPROVAL_PERSON_ORGANIZATION ( #35, #101, #32 ) ;
#292 = ORIENTED_EDGE ( 'NONE', *, *, #219, .T. ) ;
#293 = COORDINATED_UNIVERSAL_TIME_OFFSET ( 8, 0, .AHEAD. ) ;
#294 = CC_DESIGN_PERSON_AND_ORGANIZATION_ASSIGNMENT ( #235, #162, ( #246 ) ) ;
#295 = ORIENTED_EDGE ( 'NONE', *, *, #284, .F. ) ;
#296 = VERTEX_POINT ( 'NONE', #280 ) ;
#297 = ADVANCED_FACE ( 'NONE', ( #54, #163 ), #33, .F. ) ;
#298 = ORIENTED_EDGE ( 'NONE', *, *, #158, .F. ) ;
#299 = AXIS2_PLACEMENT_3D ( 'NONE', #279, #335, #251 ) ;
#300 = CC_DESIGN_SECURITY_CLASSIFICATION ( #263, ( #246 ) ) ;
#301 = ORIENTED_EDGE ( 'NONE', *, *, #219, .F. ) ;
#302 = EDGE_CURVE ( 'NONE', #330, #94, #201, .T. ) ;
#303 = VERTEX_POINT ( 'NONE', #184 ) ;
#304 = CARTESIAN_POINT ( 'NONE',  ( -1.614212418857619014, 0.000000000000000000, 6.349999999999999645 ) ) ;
#305 = AXIS2_PLACEMENT_3D ( 'NONE', #315, #256, #286 ) ;
#306 = CC_DESIGN_APPROVAL ( #101, ( #246 ) ) ;
#307 = CYLINDRICAL_SURFACE ( 'NONE', #51, 6.349999999999999645 ) ;
#308 = DIRECTION ( 'NONE',  ( -1.000000000000000000, -0.000000000000000000, -0.000000000000000000 ) ) ;
#309 = DIRECTION ( 'NONE',  ( -1.000000000000000000, -0.000000000000000000, -0.000000000000000000 ) ) ;
#310 = CIRCLE ( 'NONE', #305, 12.69999999999999929 ) ;
#311 = MANIFOLD_SOLID_BREP ( 'Ðý×', #231 ) ;
#312 = CIRCLE ( 'NONE', #187, 12.69999999999999929 ) ;
#313 = CC_DESIGN_PERSON_AND_ORGANIZATION_ASSIGNMENT ( #193, #85, ( #246 ) ) ;
#314 = LOCAL_TIME ( 17, 13, 3.000000000000000000, #134 ) ;
#315 = CARTESIAN_POINT ( 'NONE',  ( 3.000000000000000000, 0.000000000000000000, 0.000000000000000000 ) ) ;
#316 = CARTESIAN_POINT ( 'NONE',  ( 3.000000000000000000, 0.000000000000000000, 0.000000000000000000 ) ) ;
#317 = COORDINATED_UNIVERSAL_TIME_OFFSET ( 8, 0, .AHEAD. ) ;
#318 = ORIENTED_EDGE ( 'NONE', *, *, #83, .F. ) ;
#319 = SHAPE_DEFINITION_REPRESENTATION ( #323, #244 ) ;
#320 = LOCAL_TIME ( 17, 13, 3.000000000000000000, #317 ) ;
#321 = CARTESIAN_POINT ( 'NONE',  ( -1.500000000000000444, 6.349999999999999645, 0.000000000000000000 ) ) ;
#322 = APPROVAL_DATE_TIME ( #14, #327 ) ;
#323 = PRODUCT_DEFINITION_SHAPE ( 'NONE', 'NONE',  #221 ) ;
#324 = FACE_OUTER_BOUND ( 'NONE', #172, .T. ) ;
#325 = EDGE_LOOP ( 'NONE', ( #329, #191, #64, #243 ) ) ;
#326 = COORDINATED_UNIVERSAL_TIME_OFFSET ( 8, 0, .AHEAD. ) ;
#327 = APPROVAL ( #63, 'UNSPECIFIED' ) ;
#328 = AXIS2_PLACEMENT_3D ( 'NONE', #42, #267, #45 ) ;
#329 = ORIENTED_EDGE ( 'NONE', *, *, #20, .T. ) ;
#330 = VERTEX_POINT ( 'NONE', #186 ) ;
#331 = CARTESIAN_POINT ( 'NONE',  ( 1.500000000000000888, 0.000000000000000000, 0.000000000000000000 ) ) ;
#332 = CIRCLE ( 'NONE', #278, 6.349999999999999645 ) ;
#333 = ADVANCED_FACE ( 'NONE', ( #324 ), #234, .F. ) ;
#334 = EDGE_LOOP ( 'NONE', ( #298, #292, #173, #270 ) ) ;
#335 = DIRECTION ( 'NONE',  ( -1.000000000000000000, -0.000000000000000000, -0.000000000000000000 ) ) ;
ENDSEC;
END-ISO-10303-21;
